  0
SECTION
  2
HEADER
  9
$ACADVER
  1
AC1015
  9
$ACADMAINTVER
 70
     6
  9
$DWGCODEPAGE
  3
ANSI_1254
  9
$INSBASE
 10
0.0
 20
0.0
 30
0.0
  9
$EXTMIN
 10
0.0
 20
0.0
 30
0.0
  9
$EXTMAX
 10
279.4
 20
215.9
 30
0.0
  9
$LIMMIN
 10
0.0
 20
0.0
  9
$LIMMAX
 10
279.4
 20
215.9
  9
$ORTHOMODE
 70
     0
  9
$REGENMODE
 70
     1
  9
$FILLMODE
 70
     1
  9
$QTEXTMODE
 70
     0
  9
$MIRRTEXT
 70
     1
  9
$LTSCALE
 40
1.0
  9
$ATTMODE
 70
     1
  9
$TEXTSIZE
 40
3.5
  9
$TRACEWID
 40
1.0
  9
$TEXTSTYLE
  7
Standard
  9
$CLAYER
  8
0
  9
$CELTYPE
  6
ByLayer
  9
$CECOLOR
 62
   256
  9
$CELTSCALE
 40
1.0
  9
$DISPSILH
 70
     0
  9
$DIMSCALE
 40
1.0
  9
$DIMASZ
 40
3.5
  9
$DIMEXO
 40
1.0
  9
$DIMDLI
 40
3.75
  9
$DIMRND
 40
0.0
  9
$DIMDLE
 40
0.0
  9
$DIMEXE
 40
1.0
  9
$DIMTP
 40
0.0
  9
$DIMTM
 40
0.0
  9
$DIMTXT
 40
3.5
  9
$DIMCEN
 40
2.5
  9
$DIMTSZ
 40
0.0
  9
$DIMTOL
 70
     0
  9
$DIMLIM
 70
     0
  9
$DIMTIH
 70
     1
  9
$DIMTOH
 70
     1
  9
$DIMSE1
 70
     0
  9
$DIMSE2
 70
     0
  9
$DIMTAD
 70
     1
  9
$DIMZIN
 70
     0
  9
$DIMBLK
  1

  9
$DIMASO
 70
     1
  9
$DIMSHO
 70
     1
  9
$DIMPOST
  1

  9
$DIMAPOST
  1

  9
$DIMALT
 70
     0
  9
$DIMALTD
 70
     3
  9
$DIMALTF
 40
0.0393700787
  9
$DIMLFAC
 40
1.0
  9
$DIMTOFL
 70
     1
  9
$DIMTVP
 40
0.0
  9
$DIMTIX
 70
     0
  9
$DIMSOXD
 70
     0
  9
$DIMSAH
 70
     0
  9
$DIMBLK1
  1

  9
$DIMBLK2
  1

  9
$DIMSTYLE
  2
ISO-25
  9
$DIMCLRD
 70
     0
  9
$DIMCLRE
 70
     0
  9
$DIMCLRT
 70
     0
  9
$DIMTFAC
 40
1.0
  9
$DIMGAP
 40
1.524
  9
$DIMJUST
 70
     0
  9
$DIMSD1
 70
     0
  9
$DIMSD2
 70
     0
  9
$DIMTOLJ
 70
     0
  9
$DIMTZIN
 70
     0
  9
$DIMALTZ
 70
     0
  9
$DIMALTTZ
 70
     0
  9
$DIMUPT
 70
     0
  9
$DIMDEC
 70
     2
  9
$DIMTDEC
 70
     2
  9
$DIMALTU
 70
     2
  9
$DIMALTTD
 70
     3
  9
$DIMTXSTY
  7
Standard
  9
$DIMAUNIT
 70
     0
  9
$DIMADEC
 70
     2
  9
$DIMALTRND
 40
0.0
  9
$DIMAZIN
 70
     0
  9
$DIMDSEP
 70
    44
  9
$DIMATFIT
 70
     3
  9
$DIMFRAC
 70
     0
  9
$DIMLDRBLK
  1

  9
$DIMLUNIT
 70
     2
  9
$DIMLWD
 70
    -2
  9
$DIMLWE
 70
    -2
  9
$DIMTMOVE
 70
     0
  9
$LUNITS
 70
     2
  9
$LUPREC
 70
     2
  9
$SKETCHINC
 40
1.0
  9
$FILLETRAD
 40
10.0
  9
$AUNITS
 70
     0
  9
$AUPREC
 70
     2
  9
$MENU
  1
.
  9
$ELEVATION
 40
0.0
  9
$PELEVATION
 40
0.0
  9
$THICKNESS
 40
0.0
  9
$LIMCHECK
 70
     0
  9
$CHAMFERA
 40
0.0
  9
$CHAMFERB
 40
0.0
  9
$CHAMFERC
 40
0.0
  9
$CHAMFERD
 40
0.0
  9
$SKPOLY
 70
     0
  9
$TDCREATE
 40
2460608.530392894
  9
$TDUCREATE
 40
2460608.405392894
  9
$TDUPDATE
 40
2460608.530393113
  9
$TDUUPDATE
 40
2460608.405393113
  9
$TDINDWG
 40
0.0000000116
  9
$TDUSRTIMER
 40
0.0000000116
  9
$USRTIMER
 70
     1
  9
$ANGBASE
 50
0.0
  9
$ANGDIR
 70
     0
  9
$PDMODE
 70
     0
  9
$PDSIZE
 40
-1.0
  9
$PLINEWID
 40
0.0
  9
$SPLFRAME
 70
     0
  9
$SPLINETYPE
 70
     6
  9
$SPLINESEGS
 70
     8
  9
$HANDSEED
  5
D2
  9
$SURFTAB1
 70
     6
  9
$SURFTAB2
 70
     6
  9
$SURFTYPE
 70
     6
  9
$SURFU
 70
     6
  9
$SURFV
 70
     6
  9
$UCSBASE
  2

  9
$UCSNAME
  2

  9
$UCSORG
 10
0.0
 20
0.0
 30
0.0
  9
$UCSXDIR
 10
1.0
 20
0.0
 30
0.0
  9
$UCSYDIR
 10
0.0
 20
1.0
 30
0.0
  9
$UCSORTHOREF
  2

  9
$UCSORTHOVIEW
 70
     0
  9
$UCSORGTOP
 10
0.0
 20
0.0
 30
0.0
  9
$UCSORGBOTTOM
 10
0.0
 20
0.0
 30
0.0
  9
$UCSORGLEFT
 10
0.0
 20
0.0
 30
0.0
  9
$UCSORGRIGHT
 10
0.0
 20
0.0
 30
0.0
  9
$UCSORGFRONT
 10
0.0
 20
0.0
 30
0.0
  9
$UCSORGBACK
 10
0.0
 20
0.0
 30
0.0
  9
$PUCSBASE
  2

  9
$PUCSNAME
  2

  9
$PUCSORG
 10
0.0
 20
0.0
 30
0.0
  9
$PUCSXDIR
 10
1.0
 20
0.0
 30
0.0
  9
$PUCSYDIR
 10
0.0
 20
1.0
 30
0.0
  9
$PUCSORTHOREF
  2

  9
$PUCSORTHOVIEW
 70
     0
  9
$PUCSORGTOP
 10
0.0
 20
0.0
 30
0.0
  9
$PUCSORGBOTTOM
 10
0.0
 20
0.0
 30
0.0
  9
$PUCSORGLEFT
 10
0.0
 20
0.0
 30
0.0
  9
$PUCSORGRIGHT
 10
0.0
 20
0.0
 30
0.0
  9
$PUCSORGFRONT
 10
0.0
 20
0.0
 30
0.0
  9
$PUCSORGBACK
 10
0.0
 20
0.0
 30
0.0
  9
$USERI1
 70
     0
  9
$USERI2
 70
     0
  9
$USERI3
 70
     0
  9
$USERI4
 70
     0
  9
$USERI5
 70
     0
  9
$USERR1
 40
0.0
  9
$USERR2
 40
0.0
  9
$USERR3
 40
0.0
  9
$USERR4
 40
0.0
  9
$USERR5
 40
0.0
  9
$WORLDVIEW
 70
     1
  9
$SHADEDGE
 70
     3
  9
$SHADEDIF
 70
    70
  9
$TILEMODE
 70
     1
  9
$MAXACTVP
 70
    64
  9
$PINSBASE
 10
0.0
 20
0.0
 30
0.0
  9
$PLIMCHECK
 70
     0
  9
$PEXTMIN
 10
1.0000000000E+20
 20
1.0000000000E+20
 30
1.0000000000E+20
  9
$PEXTMAX
 10
-1.0000000000E+20
 20
-1.0000000000E+20
 30
-1.0000000000E+20
  9
$PLIMMIN
 10
0.0
 20
0.0
  9
$PLIMMAX
 10
420.0
 20
297.0
  9
$UNITMODE
 70
     0
  9
$VISRETAIN
 70
     1
  9
$PLINEGEN
 70
     0
  9
$PSLTSCALE
 70
     1
  9
$TREEDEPTH
 70
  3020
  9
$CMLSTYLE
  2
Standard
  9
$CMLJUST
 70
     0
  9
$CMLSCALE
 40
20.0
  9
$PROXYGRAPHICS
 70
     1
  9
$MEASUREMENT
 70
     1
  9
$CELWEIGHT
370
    -1
  9
$ENDCAPS
280
     0
  9
$JOINSTYLE
280
     0
  9
$LWDISPLAY
290
     1
  9
$INSUNITS
 70
     4
  9
$HYPERLINKBASE
  1

  9
$STYLESHEET
  1

  9
$XEDIT
290
     1
  9
$CEPSNTYPE
380
     0
  9
$PSTYLEMODE
290
     1
  9
$FINGERPRINTGUID
  2
{2cfd2db7-35f6-46d8-9251-eced341d5cca}
  9
$VERSIONGUID
  2
{FAEB1C32-E019-11D5-929B-00C0DF256EC4}
  9
$EXTNAMES
290
     1
  9
$PSVPSCALE
 40
0.0
  9
$OLESTARTUP
290
     0
  0
ENDSEC
  0
SECTION
  2
CLASSES
  0
CLASS
  1
ACDBDICTIONARYWDFLT
  2
AcDbDictionaryWithDefault
  3
ObjectDBX Classes
 90
        0
280
     0
281
     0
  0
CLASS
  1
VISUALSTYLE
  2
AcDbVisualStyle
  3
ObjectDBX Classes
 90
     4095
280
     0
281
     0
  0
CLASS
  1
MATERIAL
  2
AcDbMaterial
  3
ObjectDBX Classes
 90
     1153
280
     0
281
     0
  0
CLASS
  1
SCALE
  2
AcDbScale
  3
ObjectDBX Classes
 90
     1153
280
     0
281
     0
  0
CLASS
  1
TABLESTYLE
  2
AcDbTableStyle
  3
ObjectDBX Classes
 90
     4095
280
     0
281
     0
  0
CLASS
  1
MLEADERSTYLE
  2
AcDbMLeaderStyle
  3
ACDB_MLEADERSTYLE_CLASS
 90
     4095
280
     0
281
     0
  0
CLASS
  1
SUN
  2
AcDbSun
  3
SCENEOE
 90
     1153
280
     0
281
     0
  0
CLASS
  1
ACDBPLACEHOLDER
  2
AcDbPlaceHolder
  3
ObjectDBX Classes
 90
        0
280
     0
281
     0
  0
CLASS
  1
LAYOUT
  2
AcDbLayout
  3
ObjectDBX Classes
 90
        0
280
     0
281
     0
  0
ENDSEC
  0
SECTION
  2
TABLES
  0
TABLE
  2
VPORT
  5
8
330
0
100
AcDbSymbolTable
 70
     1
  0
VPORT
  5
29
330
8
100
AcDbSymbolTableRecord
100
AcDbViewportTableRecord
  2
*Active
 70
     0
 10
0.0
 20
0.0
 11
1.0
 21
1.0
 12
139.7
 22
107.95
 13
0.0
 23
0.0
 14
10.0
 24
10.0
 15
10.0
 25
10.0
 16
0.0
 26
0.0
 36
1.0
 17
0.0
 27
0.0
 37
0.0
 40
215.9
 41
1.2941176471
 42
50.0
 43
0.0
 44
0.0
 50
0.0
 51
0.0
 71
     0
 72
  2000
 73
     1
 74
     3
 75
     0
 76
     0
 77
     0
 78
     0
281
     0
 65
     1
110
0.0
120
0.0
130
0.0
111
1.0
121
0.0
131
0.0
112
0.0
122
1.0
132
0.0
 79
     0
146
0.0
  0
ENDTAB
  0
TABLE
  2
LTYPE
  5
5
330
0
100
AcDbSymbolTable
 70
     6
  0
LTYPE
  5
14
330
5
100
AcDbSymbolTableRecord
100
AcDbLinetypeTableRecord
  2
ByBlock
 70
     0
  3

 72
    65
 73
     0
 40
0.0
  0
LTYPE
  5
15
330
5
100
AcDbSymbolTableRecord
100
AcDbLinetypeTableRecord
  2
ByLayer
 70
     0
  3

 72
    65
 73
     0
 40
0.0
  0
LTYPE
  5
16
330
5
100
AcDbSymbolTableRecord
100
AcDbLinetypeTableRecord
  2
Continuous
 70
     0
  3
Solid line
 72
    65
 73
     0
 40
0.0
  0
LTYPE
  5
6E
330
5
100
AcDbSymbolTableRecord
100
AcDbLinetypeTableRecord
  2
HIDDEN
 70
     0
  3
Hidden __ __ __ __ __ __ __ __ __ __ __ __ __ __
 72
    65
 73
     2
 40
1.905
 49
1.27
 74
     0
 49
-0.635
 74
     0
  0
LTYPE
  5
6F
330
5
100
AcDbSymbolTableRecord
100
AcDbLinetypeTableRecord
  2
PHANTOM
 70
     0
  3
Phantom ______  __  __  ______  __  __  ______
 72
    65
 73
     6
 40
12.7
 49
6.35
 74
     0
 49
-1.27
 74
     0
 49
1.27
 74
     0
 49
-1.27
 74
     0
 49
1.27
 74
     0
 49
-1.27
 74
     0
  0
LTYPE
  5
70
330
5
100
AcDbSymbolTableRecord
100
AcDbLinetypeTableRecord
  2
CENTER
 70
     0
  3
Center ____ _ ____ _ ____ _ ____ _ ____ _ ____
 72
    65
 73
     4
 40
10.16
 49
6.35
 74
     0
 49
-1.27
 74
     0
 49
1.27
 74
     0
 49
-1.27
 74
     0
  0
LTYPE
  5
71
330
5
100
AcDbSymbolTableRecord
100
AcDbLinetypeTableRecord
  2
CENTERX2
 70
     0
  3
Center (2x) ________  __  ________  __  _____
 72
    65
 73
     4
 40
20.32
 49
12.7
 74
     0
 49
-2.54
 74
     0
 49
2.54
 74
     0
 49
-2.54
 74
     0
  0
LTYPE
  5
72
330
5
100
AcDbSymbolTableRecord
100
AcDbLinetypeTableRecord
  2
DOT2
 70
     0
  3
Dot (.5x) ........................................
 72
    65
 73
     2
 40
0.635
 49
0.0
 74
     0
 49
-0.635
 74
     0
  0
ENDTAB
  0
TABLE
  2
LAYER
  5
2
330
0
100
AcDbSymbolTable
 70
    17
  0
LAYER
  5
10
330
2
100
AcDbSymbolTableRecord
100
AcDbLayerTableRecord
  2
0
 70
     0
 62
     7
  6
Continuous
370
    -3
390
F
  0
LAYER
  5
73
330
2
100
AcDbSymbolTableRecord
100
AcDbLayerTableRecord
  2
FORMAT
 70
     0
 62
     7
  6
Continuous
370
    -3
390
F
  0
LAYER
  5
74
330
2
100
AcDbSymbolTableRecord
100
AcDbLayerTableRecord
  2
YARDIMCI_GEOMETRI
 70
     0
 62
    -6
  6
Continuous
290
     0
370
    -3
390
F
  0
LAYER
  5
75
330
2
100
AcDbSymbolTableRecord
100
AcDbLayerTableRecord
  2
SAYFA_CERCEVESI
 70
     0
 62
     7
  6
Continuous
370
    25
390
F
  0
LAYER
  5
76
330
2
100
AcDbSymbolTableRecord
100
AcDbLayerTableRecord
  2
ANTET
 70
     0
 62
     7
  6
Continuous
370
    -3
390
F
  0
LAYER
  5
77
330
2
100
AcDbSymbolTableRecord
100
AcDbLayerTableRecord
  2
OLCU
 70
     0
 62
   150
  6
Continuous
370
    -3
390
F
  0
LAYER
  5
78
330
2
100
AcDbSymbolTableRecord
100
AcDbLayerTableRecord
  2
METIN
 70
     0
 62
    96
  6
Continuous
370
    -3
390
F
  0
LAYER
  5
79
330
2
100
AcDbSymbolTableRecord
100
AcDbLayerTableRecord
  2
BALON
 70
     0
 62
     5
  6
Continuous
370
    -3
390
F
  0
LAYER
  5
7A
330
2
100
AcDbSymbolTableRecord
100
AcDbLayerTableRecord
  2
VURGU
 70
     0
 62
     7
  6
Continuous
370
    -3
390
F
  0
LAYER
  5
7B
330
2
100
AcDbSymbolTableRecord
100
AcDbLayerTableRecord
  2
SILIK
 70
     0
 62
     7
  6
Continuous
370
    -3
390
F
  0
LAYER
  5
7C
330
2
100
AcDbSymbolTableRecord
100
AcDbLayerTableRecord
  2
MODEL
 70
     0
 62
     7
  6
Continuous
370
    -3
390
F
  0
LAYER
  5
7D
330
2
100
AcDbSymbolTableRecord
100
AcDbLayerTableRecord
  2
DETAYLANDıRMA
 70
     0
 62
   190
  6
Continuous
370
    -3
390
F
  0
LAYER
  5
7E
330
2
100
AcDbSymbolTableRecord
100
AcDbLayerTableRecord
  2
TOLERANS
 70
     0
 62
   230
  6
Continuous
370
    -3
390
F
  0
LAYER
  5
7F
330
2
100
AcDbSymbolTableRecord
100
AcDbLayerTableRecord
  2
MERKEZ_CIZGILERI
 70
     0
 62
    30
  6
Continuous
370
    -3
390
F
  0
LAYER
  5
80
330
2
100
AcDbSymbolTableRecord
100
AcDbLayerTableRecord
  2
KESIT-DETAY_CIZGILERI
 70
     0
 62
     7
  6
Continuous
370
    -3
390
F
  0
LAYER
  5
81
330
2
100
AcDbSymbolTableRecord
100
AcDbLayerTableRecord
  2
\U+041E\U+0421\U+0415\U+0412\U+042B\U+0415
 70
     0
 62
     7
  6
Continuous
370
    -3
390
F
  0
LAYER
  5
82
330
2
100
AcDbSymbolTableRecord
100
AcDbLayerTableRecord
  2
\U+0412\U+041E\U+0414\U+042F\U+041D\U+042B\U+0415_\U+0417\U+041D\U+0410\U+041A\U+0418
 70
     0
 62
    11
  6
Continuous
370
    -3
390
F
  0
ENDTAB
  0
TABLE
  2
STYLE
  5
3
330
0
100
AcDbSymbolTable
 70
     1
  0
STYLE
  5
11
330
3
100
AcDbSymbolTableRecord
100
AcDbTextStyleTableRecord
  2
Standard
 70
     0
 40
0.0
 41
1.0
 50
0.0
 71
     0
 42
3.5
  3
txt
  4

  0
ENDTAB
  0
TABLE
  2
VIEW
  5
6
330
0
100
AcDbSymbolTable
 70
     0
  0
ENDTAB
  0
TABLE
  2
UCS
  5
7
330
0
100
AcDbSymbolTable
 70
     0
  0
ENDTAB
  0
TABLE
  2
APPID
  5
9
330
0
100
AcDbSymbolTable
 70
     1
  0
APPID
  5
12
330
9
100
AcDbSymbolTableRecord
100
AcDbRegAppTableRecord
  2
ACAD
 70
     0
  0
ENDTAB
  0
TABLE
  2
DIMSTYLE
  5
A
330
0
100
AcDbSymbolTable
 70
     1
100
AcDbDimStyleTable
  0
DIMSTYLE
105
27
330
A
100
AcDbSymbolTableRecord
100
AcDbDimStyleTableRecord
  2
ISO-25
 70
     0
 41
2.5
 42
0.625
 43
3.75
 44
1.25
 73
     0
 74
     0
 77
     1
 78
     8
140
2.5
141
2.5
143
0.0393700787
147
0.625
171
     3
172
     1
178
     0
271
     2
272
     2
274
     3
278
    44
283
     0
284
     8
340
11
  0
ENDTAB
  0
TABLE
  2
BLOCK_RECORD
  5
1
330
0
100
AcDbSymbolTable
 70
     3
  0
BLOCK_RECORD
  5
1F
330
1
100
AcDbSymbolTableRecord
100
AcDbBlockTableRecord
  2
*Model_Space
340
22
  0
BLOCK_RECORD
  5
1B
330
1
100
AcDbSymbolTableRecord
100
AcDbBlockTableRecord
  2
*Paper_Space
340
1E
  0
BLOCK_RECORD
  5
23
330
1
100
AcDbSymbolTableRecord
100
AcDbBlockTableRecord
  2
*Paper_Space0
340
26
  0
BLOCK_RECORD
  5
88
330
1
100
AcDbSymbolTableRecord
100
AcDbBlockTableRecord
  2
SW_CENTERMARKSYMBOL_0
340
0
102
{BLKREFS
331
93
102
}
  0
BLOCK_RECORD
  5
9E
330
1
100
AcDbSymbolTableRecord
100
AcDbBlockTableRecord
  2
SW_CENTERMARKSYMBOL_1
340
0
102
{BLKREFS
331
A9
102
}
  0
ENDTAB
  0
ENDSEC
  0
SECTION
  2
BLOCKS
  0
BLOCK
  5
20
330
1F
100
AcDbEntity
  8
0
100
AcDbBlockBegin
  2
*Model_Space
 70
     0
 10
0.0
 20
0.0
 30
0.0
  3
*Model_Space
  1

  0
ENDBLK
  5
21
330
1F
100
AcDbEntity
  8
0
100
AcDbBlockEnd
  0
BLOCK
  5
1C
330
1B
100
AcDbEntity
 67
     1
  8
0
100
AcDbBlockBegin
  2
*Paper_Space
 70
     0
 10
0.0
 20
0.0
 30
0.0
  3
*Paper_Space
  1

  0
ENDBLK
  5
1D
330
1B
100
AcDbEntity
 67
     1
  8
0
100
AcDbBlockEnd
  0
BLOCK
  5
24
330
23
100
AcDbEntity
  8
0
100
AcDbBlockBegin
  2
*Paper_Space0
 70
     0
 10
0.0
 20
0.0
 30
0.0
  3
*Paper_Space0
  1

  0
ENDBLK
  5
25
330
23
100
AcDbEntity
  8
0
100
AcDbBlockEnd
  0
BLOCK
  5
89
330
88
100
AcDbEntity
  8
0
100
AcDbBlockBegin
  2
SW_CENTERMARKSYMBOL_0
 70
     0
 10
0.0
 20
0.0
 30
0.0
  3
SW_CENTERMARKSYMBOL_0
  1

  0
LINE
  5
8B
330
88
100
AcDbEntity
  8
FORMAT
 62
     0
100
AcDbLine
 10
0.0
 20
0.0
 30
0.0
 11
0.0
 21
2.5
 31
0.0
  0
LINE
  5
8C
330
88
100
AcDbEntity
  8
FORMAT
 62
     0
100
AcDbLine
 10
0.0
 20
0.0
 30
0.0
 11
-2.5
 21
0.0
 31
0.0
  0
LINE
  5
8D
330
88
100
AcDbEntity
  8
FORMAT
 62
     0
100
AcDbLine
 10
0.0
 20
0.0
 30
0.0
 11
0.0
 21
-2.5
 31
0.0
  0
LINE
  5
8E
330
88
100
AcDbEntity
  8
FORMAT
 62
     0
100
AcDbLine
 10
0.0
 20
0.0
 30
0.0
 11
2.5
 21
0.0
 31
0.0
  0
LINE
  5
8F
330
88
100
AcDbEntity
  8
FORMAT
 62
     0
100
AcDbLine
 10
0.0
 20
5.0
 30
0.0
 11
0.0
 21
142.5
 31
0.0
  0
LINE
  5
90
330
88
100
AcDbEntity
  8
FORMAT
 62
     0
100
AcDbLine
 10
-5.0
 20
0.0
 30
0.0
 11
-142.5
 21
0.0
 31
0.0
  0
LINE
  5
91
330
88
100
AcDbEntity
  8
FORMAT
 62
     0
100
AcDbLine
 10
0.0
 20
-5.0
 30
0.0
 11
0.0
 21
-142.5
 31
0.0
  0
LINE
  5
92
330
88
100
AcDbEntity
  8
FORMAT
 62
     0
100
AcDbLine
 10
5.0
 20
0.0
 30
0.0
 11
142.5
 21
0.0
 31
0.0
  0
ENDBLK
  5
8A
330
88
100
AcDbEntity
  8
0
100
AcDbBlockEnd
  0
BLOCK
  5
9F
330
9E
100
AcDbEntity
  8
0
100
AcDbBlockBegin
  2
SW_CENTERMARKSYMBOL_1
 70
     0
 10
0.0
 20
0.0
 30
0.0
  3
SW_CENTERMARKSYMBOL_1
  1

  0
LINE
  5
A1
330
9E
100
AcDbEntity
  8
FORMAT
 62
     0
100
AcDbLine
 10
0.0
 20
0.0
 30
0.0
 11
0.0
 21
2.5
 31
0.0
  0
LINE
  5
A2
330
9E
100
AcDbEntity
  8
FORMAT
 62
     0
100
AcDbLine
 10
0.0
 20
0.0
 30
0.0
 11
-2.5
 21
0.0
 31
0.0
  0
LINE
  5
A3
330
9E
100
AcDbEntity
  8
FORMAT
 62
     0
100
AcDbLine
 10
0.0
 20
0.0
 30
0.0
 11
0.0
 21
-2.5
 31
0.0
  0
LINE
  5
A4
330
9E
100
AcDbEntity
  8
FORMAT
 62
     0
100
AcDbLine
 10
0.0
 20
0.0
 30
0.0
 11
2.5
 21
0.0
 31
0.0
  0
LINE
  5
A5
330
9E
100
AcDbEntity
  8
FORMAT
 62
     0
100
AcDbLine
 10
0.0
 20
5.0
 30
0.0
 11
0.0
 21
142.5
 31
0.0
  0
LINE
  5
A6
330
9E
100
AcDbEntity
  8
FORMAT
 62
     0
100
AcDbLine
 10
-5.0
 20
0.0
 30
0.0
 11
-142.5
 21
0.0
 31
0.0
  0
LINE
  5
A7
330
9E
100
AcDbEntity
  8
FORMAT
 62
     0
100
AcDbLine
 10
0.0
 20
-5.0
 30
0.0
 11
0.0
 21
-142.5
 31
0.0
  0
LINE
  5
A8
330
9E
100
AcDbEntity
  8
FORMAT
 62
     0
100
AcDbLine
 10
5.0
 20
0.0
 30
0.0
 11
142.5
 21
0.0
 31
0.0
  0
ENDBLK
  5
A0
330
9E
100
AcDbEntity
  8
0
100
AcDbBlockEnd
  0
ENDSEC
  0
SECTION
  2
ENTITIES
  0
LINE
  5
83
330
1F
100
AcDbEntity
  8
0
  6
Continuous
 62
     7
370
    25
100
AcDbLine
 10
37.1765957447
 20
-27.0914893617
 30
0.0
 11
377.1765957447
 21
-27.0914893617
 31
0.0
  0
LINE
  5
84
330
1F
100
AcDbEntity
  8
0
  6
Continuous
 62
     7
370
    25
100
AcDbLine
 10
377.1765957447
 20
252.9085106383
 30
0.0
 11
37.1765957447
 21
252.9085106383
 31
0.0
  0
CIRCLE
  5
85
330
1F
100
AcDbEntity
  8
0
  6
Continuous
 62
     7
370
    25
100
AcDbCircle
 10
37.1765957447
 20
112.9085106383
 30
0.0
 40
114.6
  0
CIRCLE
  5
86
330
1F
100
AcDbEntity
  8
0
  6
Continuous
 62
     7
370
    25
100
AcDbCircle
 10
37.1765957447
 20
112.9085106383
 30
0.0
 40
140.0000000000001
  0
LINE
  5
87
330
1F
100
AcDbEntity
  8
0
  6
Continuous
 62
     7
370
    25
100
AcDbLine
 10
377.1765957447
 20
252.9085106383
 30
0.0
 11
377.1765957447
 21
-27.0914893617
 31
0.0
  0
INSERT
  5
93
330
1F
100
AcDbEntity
  8
FORMAT
 62
     7
100
AcDbBlockReference
  2
SW_CENTERMARKSYMBOL_0
 10
37.1765957447
 20
112.9085106383
 30
0.0
  0
LINE
  5
94
330
1F
100
AcDbEntity
  8
0
  6
Continuous
 62
     7
370
    25
100
AcDbLine
 10
-697.7205016399
 20
252.9085106383
 30
0.0
 11
-1042.7205016399
 21
252.9085106383
 31
0.0
  0
LINE
  5
95
330
1F
100
AcDbEntity
  8
0
  6
Continuous
 62
     7
370
    25
100
AcDbLine
 10
-352.7205016399
 20
252.9085106383
 30
0.0
 11
-697.7205016399
 21
252.9085106383
 31
0.0
  0
LINE
  5
96
330
1F
100
AcDbEntity
  8
0
  6
Continuous
 62
     7
370
    25
100
AcDbLine
 10
-697.7205016399
 20
-27.0914893617
 30
0.0
 11
-352.7205016399
 21
-27.0914893617
 31
0.0
  0
LINE
  5
97
330
1F
100
AcDbEntity
  8
0
  6
Continuous
 62
     7
370
    25
100
AcDbLine
 10
-1042.7205016399
 20
-27.0914893617
 30
0.0
 11
-697.7205016399
 21
-27.0914893617
 31
0.0
  0
CIRCLE
  5
98
330
1F
100
AcDbEntity
  8
0
  6
Continuous
 62
     7
370
    25
100
AcDbCircle
 10
-697.7205016399
 20
112.9085106383
 30
0.0
 40
114.6
  0
CIRCLE
  5
99
330
1F
100
AcDbEntity
  8
0
  6
Continuous
 62
     7
370
    25
100
AcDbCircle
 10
-697.7205016399
 20
112.9085106383
 30
0.0
 40
140.0
  0
LINE
  5
9A
330
1F
100
AcDbEntity
  8
0
  6
Continuous
 62
     7
370
    25
100
AcDbLine
 10
-1042.7205016399
 20
112.9085106383
 30
0.0
 11
-1042.7205016399
 21
252.9085106383
 31
0.0
  0
LINE
  5
9B
330
1F
100
AcDbEntity
  8
0
  6
Continuous
 62
     7
370
    25
100
AcDbLine
 10
-1042.7205016399
 20
-27.0914893617
 30
0.0
 11
-1042.7205016399
 21
112.9085106383
 31
0.0
  0
LINE
  5
9C
330
1F
100
AcDbEntity
  8
0
  6
Continuous
 62
     7
370
    25
100
AcDbLine
 10
-352.7205016399
 20
112.9085106383
 30
0.0
 11
-352.7205016399
 21
252.9085106383
 31
0.0
  0
LINE
  5
9D
330
1F
100
AcDbEntity
  8
0
  6
Continuous
 62
     7
370
    25
100
AcDbLine
 10
-352.7205016399
 20
-27.0914893617
 30
0.0
 11
-352.7205016399
 21
112.9085106383
 31
0.0
  0
INSERT
  5
A9
330
1F
100
AcDbEntity
  8
FORMAT
 62
     7
100
AcDbBlockReference
  2
SW_CENTERMARKSYMBOL_1
 10
-697.7205016399
 20
112.9085106383
 30
0.0
  0
LINE
  5
AA
330
1F
100
AcDbEntity
  8
0
  6
Continuous
 62
     7
370
    25
100
AcDbLine
 10
177.1765957447
 20
866.7542637961
 30
0.0
 11
177.1765957447
 21
1071.7542637961
 31
0.0
  0
LINE
  5
AB
330
1F
100
AcDbEntity
  8
0
  6
Continuous
 62
     7
370
    25
100
AcDbLine
 10
177.1765957447
 20
381.7542637961
 30
0.0
 11
177.1765957447
 21
586.7542637961
 31
0.0
  0
LINE
  5
AC
330
1F
100
AcDbEntity
  8
0
  6
Continuous
 62
     7
370
    25
100
AcDbLine
 10
-102.8234042553
 20
1071.7542637961
 30
0.0
 11
-102.8234042553
 21
381.7542637961
 31
0.0
  0
LINE
  5
AD
330
1F
100
AcDbEntity
  8
0
  6
Continuous
 62
     7
370
    25
100
AcDbLine
 10
177.1765957447
 20
586.7542637961
 30
0.0
 11
377.1765957447
 21
586.7542637961
 31
0.0
  0
LINE
  5
AE
330
1F
100
AcDbEntity
  8
0
  6
Continuous
 62
     7
370
    25
100
AcDbLine
 10
377.1765957447
 20
866.7542637961
 30
0.0
 11
177.1765957447
 21
866.7542637961
 31
0.0
  0
LINE
  5
AF
330
1F
100
AcDbEntity
  8
0
  6
Continuous
 62
     7
370
    25
100
AcDbLine
 10
177.1765957447
 20
866.7542637961
 30
0.0
 11
37.1765957447
 21
726.7542637961
 31
0.0
  0
LINE
  5
B0
330
1F
100
AcDbEntity
  8
0
  6
Continuous
 62
     7
370
    25
100
AcDbLine
 10
37.1765957447
 20
726.7542637961
 30
0.0
 11
177.1765957447
 21
586.7542637961
 31
0.0
  0
LINE
  5
B1
330
1F
100
AcDbEntity
  8
0
  6
Continuous
 62
     7
370
    25
100
AcDbLine
 10
-102.8234042553
 20
1071.7542637961
 30
0.0
 11
177.1765957447
 21
1071.7542637961
 31
0.0
  0
LINE
  5
B2
330
1F
100
AcDbEntity
  8
0
  6
Continuous
 62
     7
370
    25
100
AcDbLine
 10
-102.8234042553
 20
381.7542637961
 30
0.0
 11
177.1765957447
 21
381.7542637961
 31
0.0
  0
LINE
  5
B3
330
1F
100
AcDbEntity
  8
0
  6
Continuous
 62
     7
370
    25
100
AcDbLine
 10
377.1765957447
 20
866.7542637961
 30
0.0
 11
377.1765957447
 21
586.7542637961
 31
0.0
  0
LINE
  5
B4
330
1F
100
AcDbEntity
  8
0
  6
Continuous
 62
     7
370
    25
100
AcDbLine
 10
1047.3883813102
 20
-27.0914893617
 30
0.0
 11
1392.3883813102
 21
-27.0914893617
 31
0.0
  0
LINE
  5
B5
330
1F
100
AcDbEntity
  8
0
  6
Continuous
 62
     7
370
    25
100
AcDbLine
 10
702.3883813102
 20
-27.0914893617
 30
0.0
 11
1047.3883813102
 21
-27.0914893617
 31
0.0
  0
LINE
  5
B6
330
1F
100
AcDbEntity
  8
0
  6
Continuous
 62
     7
370
    25
100
AcDbLine
 10
1047.3883813102
 20
252.9085106383
 30
0.0
 11
702.3883813102
 21
252.9085106383
 31
0.0
  0
LINE
  5
B7
330
1F
100
AcDbEntity
  8
0
  6
Continuous
 62
     7
370
    25
100
AcDbLine
 10
1392.3883813102
 20
252.9085106383
 30
0.0
 11
1047.3883813102
 21
252.9085106383
 31
0.0
  0
LINE
  5
B8
330
1F
100
AcDbEntity
  8
0
  6
Continuous
 62
     7
370
    25
100
AcDbLine
 10
1392.3883813102
 20
252.9085106383
 30
0.0
 11
1392.3883813102
 21
-27.0914893617
 31
0.0
  0
LINE
  5
B9
330
1F
100
AcDbEntity
  8
0
  6
Continuous
 62
     7
370
    25
100
AcDbLine
 10
702.3883813102
 20
252.9085106383
 30
0.0
 11
702.3883813102
 21
-27.0914893617
 31
0.0
  0
LINE
  5
BA
330
1F
100
AcDbEntity
  8
0
  6
Continuous
 62
     7
370
    25
100
AcDbLine
 10
-102.8234042553
 20
-210.123425198
 30
0.0
 11
-102.8234042553
 21
-900.123425198
 31
0.0
  0
LINE
  5
BB
330
1F
100
AcDbEntity
  8
0
  6
Continuous
 62
     7
370
    25
100
AcDbLine
 10
177.1765957447
 20
-415.123425198
 30
0.0
 11
177.1765957447
 21
-210.123425198
 31
0.0
  0
LINE
  5
BC
330
1F
100
AcDbEntity
  8
0
  6
Continuous
 62
     7
370
    25
100
AcDbLine
 10
177.1765957447
 20
-900.123425198
 30
0.0
 11
177.1765957447
 21
-695.123425198
 31
0.0
  0
LINE
  5
BD
330
1F
100
AcDbEntity
  8
0
  6
Continuous
 62
     7
370
    25
100
AcDbLine
 10
177.1765957447
 20
-695.123425198
 30
0.0
 11
377.1765957447
 21
-695.123425198
 31
0.0
  0
LINE
  5
BE
330
1F
100
AcDbEntity
  8
0
  6
Continuous
 62
     7
370
    25
100
AcDbLine
 10
377.1765957447
 20
-415.123425198
 30
0.0
 11
177.1765957447
 21
-415.123425198
 31
0.0
  0
LINE
  5
BF
330
1F
100
AcDbEntity
  8
0
  6
Continuous
 62
     7
370
    25
100
AcDbLine
 10
37.1765957447
 20
-555.123425198
 30
0.0
 11
177.1765957447
 21
-695.123425198
 31
0.0
  0
LINE
  5
C0
330
1F
100
AcDbEntity
  8
0
  6
Continuous
 62
     7
370
    25
100
AcDbLine
 10
177.1765957447
 20
-415.123425198
 30
0.0
 11
37.1765957447
 21
-555.123425198
 31
0.0
  0
LINE
  5
C1
330
1F
100
AcDbEntity
  8
0
  6
Continuous
 62
     7
370
    25
100
AcDbLine
 10
177.1765957447
 20
-900.123425198
 30
0.0
 11
-102.8234042553
 21
-900.123425198
 31
0.0
  0
LINE
  5
C2
330
1F
100
AcDbEntity
  8
0
  6
Continuous
 62
     7
370
    25
100
AcDbLine
 10
177.1765957447
 20
-210.123425198
 30
0.0
 11
-102.8234042553
 21
-210.123425198
 31
0.0
  0
LINE
  5
C3
330
1F
100
AcDbEntity
  8
0
  6
Continuous
 62
     7
370
    25
100
AcDbLine
 10
377.1765957447
 20
-415.123425198
 30
0.0
 11
377.1765957447
 21
-695.123425198
 31
0.0
  0
LINE
  5
C4
330
1F
100
AcDbEntity
  8
0
  6
Continuous
 62
     7
370
    25
100
AcDbLine
 10
939.0164475303
 20
-375.1952304791
 30
0.0
 11
765.0589193055
 21
-274.7716870101
 31
0.0
  0
LINE
  5
C5
330
1F
100
AcDbEntity
  8
0
  6
Continuous
 62
     7
370
    25
100
AcDbLine
 10
1252.9625983242
 20
-556.432485589
 30
0.0
 11
1219.0392042416
 21
-536.8489270328
 31
0.0
  0
LINE
  5
C6
330
1F
100
AcDbEntity
  8
0
  6
Continuous
 62
     7
370
    25
100
AcDbLine
 10
625.0702967364
 20
-517.2653684767
 30
0.0
 11
1112.9739757552
 21
-798.9261670555
 31
0.0
  0
LINE
  5
C7
330
1F
100
AcDbEntity
  8
0
  6
Continuous
 62
     7
370
    25
100
AcDbLine
 10
1079.0050700994
 20
-617.6889119457
 30
0.0
 11
1249.4270644183
 21
-519.3063887563
 31
0.0
  0
LINE
  5
C8
330
1F
100
AcDbEntity
  8
0
  6
Continuous
 62
     7
370
    25
100
AcDbLine
 10
1109.4384418492
 20
-276.8127072897
 30
0.0
 11
939.0164475303
 21
-375.1952304791
 31
0.0
  0
LINE
  5
C9
330
1F
100
AcDbEntity
  8
0
  6
Continuous
 62
     7
370
    25
100
AcDbLine
 10
939.0164475303
 20
-375.1952304791
 30
0.0
 11
939.0164475303
 21
-651.1646406968
 31
0.0
  0
ELLIPSE
  5
CA
330
1F
100
AcDbEntity
  8
0
  6
Continuous
 62
     7
370
    25
100
AcDbEllipse
 10
939.0164475303
 20
-536.8489270328
 30
0.0
 11
197.9898987322333
 21
2.273736754432321E-13
 31
0.0
210
0.0
220
0.0
230
1.0
 40
0.5773815452
 41
4.712388980384697
 42
5.49770587972005
  0
LWPOLYLINE
  5
CB
330
1F
100
AcDbEntity
  8
0
  6
Continuous
 62
     7
370
    25
100
AcDbPolyline
 90
      126
 70
   128
 43
0.0
 10
794.0595573871
 20
-338.8699599158
 10
793.9345224703
 20
-333.1984259466
 10
793.5597335688
 20
-327.6855810066
 10
792.936137432
 20
-322.3453510205
 10
792.0653093179
 20
-317.1912258727
 10
790.9494490138
 20
-312.2362253307
 10
789.5913752797
 20
-307.4928661559
 10
787.9945187277
 20
-302.9731304853
 10
786.162913156
 20
-298.6884355633
 10
784.1011853594
 20
-294.6496049013
 10
781.8145434411
 20
-290.866840936
 10
779.3087636571
 20
-287.3496992574
 10
776.5901758245
 20
-284.1070644708
 10
773.6656473323
 20
-281.1471277529
 10
770.5425657931
 20
-278.4773661609
 10
767.228820382
 20
-276.1045237442
 10
763.7327819075
 20
-274.0345945087
 10
760.0632816662
 20
-272.2728072752
 10
756.2295891342
 20
-270.8236124713
 10
752.2413885515
 20
-269.6906708888
 10
748.1087544589
 20
-268.8768444365
 10
743.8421262488
 20
-268.3841889106
 10
739.4522817944
 20
-268.2139488016
 10
734.9503102237
 20
-268.366554151
 10
730.3475839077
 20
-268.8416194643
 10
725.6557297324
 20
-269.6379446854
 10
720.8865997287
 20
-270.7535182276
 10
716.052241133
 20
-272.1855220553
 10
711.1648659545
 20
-273.9303388026
 10
706.2368201272
 20
-275.983560911
 10
701.2805523224
 20
-278.3400017631
 10
696.308582503
 20
-280.993708785
 10
691.333470296
 20
-283.9379784823
 10
686.3677832667
 20
-287.1653733743
 10
681.4240651715
 20
-290.6677407814
 10
676.5148042714
 20
-294.4362334195
 10
671.6524017855
 20
-298.4613317492
 10
666.8491405644
 20
-302.7328680228
 10
662.1171540629
 20
-307.2400519689
 10
657.4683956895
 20
-311.9714980498
 10
652.9146086113
 20
-316.9152542219
 10
648.4672960898
 20
-322.0588321281
 10
644.1376924223
 20
-327.3892386442
 10
639.9367345635
 20
-332.8930087009
 10
635.8750344974
 20
-338.5562392971
 10
631.9628524311
 20
-344.364624621
 10
628.2100708758
 20
-350.3034921872
 10
624.6261696835
 20
-356.3578399006
 10
621.2202020996
 20
-362.5123739536
 10
618.0007718939
 20
-368.7515474591
 10
614.9760116265
 20
-375.0595997231
 10
612.1535621043
 20
-381.4205960584
 10
609.5405530798
 20
-387.818468036
 10
607.1435852405
 20
-394.237054076
 10
604.9687135352
 20
-400.6601402732
 10
603.0214318787
 20
-407.0715013543
 10
601.3066592733
 20
-413.4549416648
 10
599.8287273835
 20
-419.7943360804
 10
598.5913695935
 20
-426.0736707408
 10
597.5977115766
 20
-432.2770835015
 10
596.850263399
 20
-438.3889040035
 10
596.3509131797
 20
-444.3936932579
 10
596.1009223208
 20
-450.2762826458
 10
596.1009223208
 20
-456.0218122359
 10
596.3509131797
 20
-461.6157683218
 10
596.850263399
 20
-467.044020085
 10
597.5977115766
 20
-472.2928552903
 10
598.5913695935
 20
-477.3490149246
 10
599.8287273835
 20
-482.1997266897
 10
601.3066592733
 20
-486.8327372668
 10
603.0214318787
 20
-491.2363432691
 10
604.9687135352
 20
-495.3994208056
 10
607.1435852405
 20
-499.3114535811
 10
609.5405530798
 20
-502.9625594614
 10
612.1535621043
 20
-506.3435154362
 10
614.9760116265
 20
-509.4457809171
 10
618.0007718939
 20
-512.2615193124
 10
621.2202020996
 20
-514.7836178225
 10
624.6261696835
 20
-517.0057054077
 10
628.2100708758
 20
-518.9221688819
 10
631.9628524311
 20
-520.528167092
 10
635.8750344974
 20
-521.8196431471
 10
639.9367345635
 20
-522.7933346668
 10
644.1376924223
 20
-523.4467820216
 10
648.4672960898
 20
-523.7783345469
 10
652.9146086113
 20
-523.7871547122
 10
657.4683956895
 20
-523.4732202369
 10
662.1171540629
 20
-522.8373241469
 10
666.8491405644
 20
-521.8810727709
 10
671.6524017855
 20
-520.6068816827
 10
676.5148042714
 20
-519.0179695997
 10
681.4240651715
 20
-517.1183502518
 10
686.3677832667
 20
-514.9128222421
 10
691.333470296
 20
-512.406956926
 10
696.308582503
 20
-509.6070843366
 10
701.2805523224
 20
-506.5202771952
 10
706.2368201272
 20
-503.1543330444
 10
711.1648659545
 20
-499.5177545514
 10
716.052241133
 20
-495.6197280289
 10
720.8865997287
 20
-491.4701002303
 10
725.6557297324
 20
-487.0793534756
 10
730.3475839077
 20
-482.4585791721
 10
734.9503102237
 20
-477.6194497967
 10
739.4522817944
 20
-472.5741894102
 10
743.8421262488
 20
-467.3355427783
 10
748.1087544589
 20
-461.9167431769
 10
752.2413885515
 20
-456.3314789642
 10
756.2295891342
 20
-450.5938590022
 10
760.0632816662
 20
-444.718377017
 10
763.7327819075
 20
-438.719874986
 10
767.228820382
 20
-432.6135056459
 10
770.5425657931
 20
-426.4146942156
 10
773.6656473323
 20
-420.1390994308
 10
776.5901758245
 20
-413.8025739885
 10
779.3087636571
 20
-407.4211245019
 10
781.8145434411
 20
-401.0108710663
 10
784.1011853594
 20
-394.5880065383
 10
786.162913156
 20
-388.1687556309
 10
787.9945187277
 20
-381.7693339292
 10
789.5913752797
 20
-375.4059069277
 10
790.9494490138
 20
-369.0945491953
 10
792.0653093179
 20
-362.8512037694
 10
792.936137432
 20
-356.6916418823
 10
793.5597335688
 20
-350.6314231221
 10
793.9345224703
 20
-344.6858561272
 10
794.0595573871
 20
-338.8699599158
  0
LWPOLYLINE
  5
CC
330
1F
100
AcDbEntity
  8
0
  6
Continuous
 62
     7
370
    25
100
AcDbPolyline
 90
       17
 70
   128
 43
0.0
 10
1281.9632364058
 20
-620.5307584947
 10
1281.838201489
 20
-614.8592245254
 10
1281.4634125875
 20
-609.3463795854
 10
1280.8398164507
 20
-604.0061495993
 10
1279.9689883366
 20
-598.8520244515
 10
1278.8531280325
 20
-593.8970239096
 10
1277.4950542984
 20
-589.1536647348
 10
1275.8981977464
 20
-584.6339290641
 10
1274.0665921748
 20
-580.3492341422
 10
1272.0048643781
 20
-576.3104034801
 10
1269.7182224598
 20
-572.5276395148
 10
1267.2124426758
 20
-569.0104978362
 10
1264.4938548433
 20
-565.7678630496
 10
1261.569326351
 20
-562.8079263317
 10
1258.4462448118
 20
-560.1381647397
 10
1255.1324994008
 20
-557.765322323
 10
1252.9625983242
 20
-556.432485589
  0
LWPOLYLINE
  5
CD
330
1F
100
AcDbEntity
  8
0
  6
Continuous
 62
     7
370
    25
100
AcDbPolyline
 90
       48
 70
   128
 43
0.0
 10
1112.9739757552
 20
-798.9261670555
 10
1116.1137498945
 20
-800.5829674607
 10
1119.8665314498
 20
-802.1889656708
 10
1123.7787135162
 20
-803.480441726
 10
1127.8404135822
 20
-804.4541332456
 10
1132.0413714411
 20
-805.1075806004
 10
1136.3709751086
 20
-805.4391331257
 10
1140.8182876301
 20
-805.447953291
 10
1145.3720747082
 20
-805.1340188158
 10
1150.0208330816
 20
-804.4981227258
 10
1154.7528195831
 20
-803.5418713497
 10
1159.5560808042
 20
-802.2676802615
 10
1164.4184832901
 20
-800.6787681786
 10
1169.3277441902
 20
-798.7791488306
 10
1174.2714622854
 20
-796.573620821
 10
1179.2371493147
 20
-794.0677555048
 10
1184.2122615217
 20
-791.2678829155
 10
1189.1842313412
 20
-788.181075774
 10
1194.1404991459
 20
-784.8151316232
 10
1199.0685449732
 20
-781.1785531302
 10
1203.9559201517
 20
-777.2805266077
 10
1208.7902787474
 20
-773.1308988091
 10
1213.5594087511
 20
-768.7401520544
 10
1218.2512629264
 20
-764.1193777509
 10
1222.8539892424
 20
-759.2802483755
 10
1227.3559608131
 20
-754.2349879891
 10
1231.7458052676
 20
-748.9963413571
 10
1236.0124334776
 20
-743.5775417558
 10
1240.1450675702
 20
-737.992277543
 10
1244.1332681529
 20
-732.2546575811
 10
1247.966960685
 20
-726.3791755959
 10
1251.6364609263
 20
-720.3806735649
 10
1255.1324994008
 20
-714.2743042247
 10
1258.4462448118
 20
-708.0754927944
 10
1261.569326351
 20
-701.7998980096
 10
1264.4938548433
 20
-695.4633725673
 10
1267.2124426758
 20
-689.0819230808
 10
1269.7182224598
 20
-682.6716696452
 10
1272.0048643781
 20
-676.2488051171
 10
1274.0665921748
 20
-669.8295542097
 10
1275.8981977464
 20
-663.430132508
 10
1277.4950542984
 20
-657.0667055065
 10
1278.8531280325
 20
-650.7553477741
 10
1279.9689883366
 20
-644.5120023482
 10
1280.8398164507
 20
-638.3524404612
 10
1281.4634125875
 20
-632.2922217009
 10
1281.838201489
 20
-626.346654706
 10
1281.9632364058
 20
-620.5307584947
  0
LWPOLYLINE
  5
CE
330
1F
100
AcDbEntity
  8
0
  6
Continuous
 62
     7
370
    25
100
AcDbPolyline
 90
      114
 70
   128
 43
0.0
 10
776.0990451449
 20
-349.238342936
 10
775.9738087443
 20
-344.110199915
 10
775.598486641
 20
-339.1425025605
 10
774.974238934
 20
-334.3506057405
 10
774.1029951374
 20
-329.7493209333
 10
772.9874482156
 20
-325.3528704466
 10
771.6310462604
 20
-321.174843457
 10
770.0379818325
 20
-317.2281540064
 10
768.2131790026
 20
-313.5250010857
 10
766.1622781318
 20
-310.0768309284
 10
763.8916184371
 20
-306.8943016308
 10
761.4082183976
 20
-303.9872502087
 10
758.7197540604
 20
-301.3646621913
 10
755.8345353147
 20
-299.0346438479
 10
752.7614802063
 20
-297.0043971317
 10
749.5100873725
 20
-295.280197419
 10
746.0904066821
 20
-293.8673741122
 10
742.5130081723
 20
-292.7702941673
 10
738.7889493767
 20
-291.9923485954
 10
734.9297411477
 20
-291.5359419818
 10
730.9473120769
 20
-291.4024850531
 10
726.8539716241
 20
-291.5923903171
 10
722.6623720702
 20
-292.1050707875
 10
718.3854694093
 20
-292.9389417982
 10
714.0364833022
 20
-294.0914259019
 10
709.6288562158
 20
-295.5589608361
 10
705.176211873
 20
-297.3370105346
 10
700.6923131421
 20
-299.4200791475
 10
696.1910194972
 20
-301.8017280292
 10
691.6862441789
 20
-304.4745956395
 10
687.1919111897
 20
-307.4304202977
 10
682.7219122553
 20
-310.6600657193
 10
678.2900638861
 20
-314.1535492553
 10
673.9100646715
 20
-317.9000727483
 10
669.5954529381
 20
-321.888055909
 10
665.3595649035
 20
-326.1051721098
 10
661.2154934548
 20
-330.5383864863
 10
657.1760476794
 20
-335.1739962269
 10
653.2537132728
 20
-339.9976729276
 10
649.4606139457
 20
-344.9945068801
 10
645.8084739509
 20
-350.149053157
 10
642.3085818437
 20
-355.4453793512
 10
638.9717555901
 20
-360.8671148219
 10
635.8083091288
 20
-366.3975012955
 10
632.8280204916
 20
-372.0194446643
 10
630.0401015798
 20
-377.7155678237
 10
627.4531696909
 20
-383.4682643832
 10
625.0752208833
 20
-389.2597530875
 10
622.9136052605
 20
-395.072132777
 10
620.9750042523
 20
-400.8874377191
 10
619.2654099635
 20
-406.6876931395
 10
617.790106652
 20
-412.454970781
 10
616.5536543958
 20
-418.1714443191
 10
615.559874998
 20
-423.8194444615
 10
614.8118401738
 20
-429.3815135636
 10
614.3118620558
 20
-434.8404595885
 10
614.0614860479
 20
-440.1794092468
 10
614.0614860479
 20
-445.3818601512
 10
614.3118620558
 20
-450.431731824
 10
614.8118401738
 20
-455.3134154013
 10
615.559874998
 20
-460.0118218789
 10
616.5536543958
 20
-464.5124287516
 10
617.790106652
 20
-468.8013249015
 10
619.2654099635
 20
-472.8652535964
 10
620.9750042523
 20
-476.6916534656
 10
622.9136052605
 20
-480.2686973264
 10
625.0752208833
 20
-483.5853287412
 10
627.4531696909
 20
-486.6312961924
 10
630.0401015798
 20
-489.397184769
 10
632.8280204916
 20
-491.8744452682
 10
635.8083091288
 20
-494.0554206195
 10
638.9717555901
 20
-495.9333695533
 10
642.3085818437
 20
-497.5024874368
 10
645.8084739509
 20
-498.7579242168
 10
649.4606139457
 20
-499.6957994101
 10
653.2537132728
 20
-500.3132140981
 10
657.1760476794
 20
-500.6082598875
 10
661.2154934548
 20
-500.5800248086
 10
665.3595649035
 20
-500.2285961345
 10
669.5954529381
 20
-499.555060111
 10
673.9100646715
 20
-498.5614985994
 10
678.2900638861
 20
-497.2509826413
 10
682.7219122553
 20
-495.6275629666
 10
687.1919111897
 20
-493.6962574724
 10
691.6862441789
 20
-491.4630357133
 10
696.1910194972
 20
-488.9348004497
 10
700.6923131421
 20
-486.119366312
 10
705.176211873
 20
-483.0254356458
 10
709.6288562158
 20
-479.6625716134
 10
714.0364833022
 20
-476.0411686348
 10
718.3854694093
 20
-472.1724202592
 10
722.6623720702
 20
-468.068284566
 10
726.8539716241
 20
-463.7414472035
 10
730.9473120769
 20
-459.2052821779
 10
734.9297411477
 20
-454.4738105155
 10
738.7889493767
 20
-449.561656924
 10
742.5130081723
 20
-444.4840045886
 10
746.0904066821
 20
-439.2565482417
 10
749.5100873725
 20
-433.8954456513
 10
752.7614802063
 20
-428.4172676784
 10
755.8345353147
 20
-422.8389470569
 10
758.7197540604
 20
-417.1777260564
 10
761.4082183976
 20
-411.4511031865
 10
763.8916184371
 20
-405.6767791103
 10
766.1622781318
 20
-399.8726019326
 10
768.2131790026
 20
-394.0565120325
 10
770.0379818325
 20
-388.2464866105
 10
771.6310462604
 20
-382.4604841222
 10
772.9874482156
 20
-376.7163887698
 10
774.1029951374
 20
-371.0319552228
 10
774.974238934
 20
-365.4247537396
 10
775.598486641
 20
-359.9121158585
 10
775.9738087443
 20
-354.5110808274
 10
776.0990451449
 20
-349.238342936
  0
LWPOLYLINE
  5
CF
330
1F
100
AcDbEntity
  8
0
  6
Continuous
 62
     7
370
    25
100
AcDbPolyline
 90
      126
 70
   128
 43
0.0
 10
1278.4277024999
 20
-455.2081158506
 10
1278.302667583
 20
-449.3922196392
 10
1277.9278786816
 20
-443.4466526443
 10
1277.3042825448
 20
-437.3864338841
 10
1276.4334544307
 20
-431.226871997
 10
1275.3175941266
 20
-424.9835265711
 10
1273.9595203924
 20
-418.6721688387
 10
1272.3626638405
 20
-412.3087418372
 10
1270.5310582688
 20
-405.9093201355
 10
1268.4693304722
 20
-399.4900692281
 10
1266.1826885539
 20
-393.0672047
 10
1263.6769087699
 20
-386.6569512645
 10
1260.9583209373
 20
-380.2755017779
 10
1258.0337924451
 20
-373.9389763356
 10
1254.9107109059
 20
-367.6633815508
 10
1251.5969654948
 20
-361.4645701205
 10
1248.1009270203
 20
-355.3582007804
 10
1244.431426779
 20
-349.3596987493
 10
1240.597734247
 20
-343.4842167641
 10
1236.6095336643
 20
-337.7465968022
 10
1232.4768995717
 20
-332.1613325895
 10
1228.2102713616
 20
-326.7425329881
 10
1223.8204269072
 20
-321.5038863561
 10
1219.3184553365
 20
-316.4586259697
 10
1214.7157290205
 20
-311.6194965943
 10
1210.0238748452
 20
-306.9987222908
 10
1205.2547448415
 20
-302.6079755361
 10
1200.4203862457
 20
-298.4583477375
 10
1195.5330110673
 20
-294.560321215
 10
1190.6049652399
 20
-290.923742722
 10
1185.6486974352
 20
-287.5577985712
 10
1180.6767276157
 20
-284.4709914298
 10
1175.7016154087
 20
-281.6711188404
 10
1170.7359283795
 20
-279.1652535243
 10
1165.7922102843
 20
-276.9597255146
 10
1160.8829493842
 20
-275.0601061666
 10
1156.0205468983
 20
-273.4711940837
 10
1151.2172856772
 20
-272.1970029955
 10
1146.4852991756
 20
-271.2407516195
 10
1141.8365408023
 20
-270.6048555295
 10
1137.2827537241
 20
-270.2909210542
 10
1132.8354412026
 20
-270.2997412195
 10
1128.5058375351
 20
-270.6312937448
 10
1124.3048796763
 20
-271.2847410996
 10
1120.2431796102
 20
-272.2584326192
 10
1116.3309975438
 20
-273.5499086744
 10
1112.5782159885
 20
-275.1559068845
 10
1108.9943147962
 20
-277.0723703587
 10
1105.5883472124
 20
-279.2944579439
 10
1102.3689170067
 20
-281.816556454
 10
1099.3441567393
 20
-284.6322948493
 10
1096.5217072171
 20
-287.7345603302
 10
1093.9086981925
 20
-291.1155163049
 10
1091.5117303533
 20
-294.7666221852
 10
1089.336858648
 20
-298.6786549608
 10
1087.3895769914
 20
-302.8417324973
 10
1085.6748043861
 20
-307.2453384996
 10
1084.1968724963
 20
-311.8783490767
 10
1082.9595147063
 20
-316.7290608418
 10
1081.9658566894
 20
-321.7852204761
 10
1081.2184085117
 20
-327.0340556814
 10
1080.7190582925
 20
-332.4623074446
 10
1080.4690674335
 20
-338.0562635305
 10
1080.4690674335
 20
-343.8017931206
 10
1080.7190582925
 20
-349.6843825085
 10
1081.2184085117
 20
-355.6891717629
 10
1081.9658566894
 20
-361.8009922649
 10
1082.9595147063
 20
-368.0044050256
 10
1084.1968724963
 20
-374.2837396859
 10
1085.6748043861
 20
-380.6231341016
 10
1087.3895769914
 20
-387.0065744121
 10
1089.336858648
 20
-393.4179354932
 10
1091.5117303533
 20
-399.8410216903
 10
1093.9086981925
 20
-406.2596077304
 10
1096.5217072171
 20
-412.657479708
 10
1099.3441567393
 20
-419.0184760433
 10
1102.3689170067
 20
-425.3265283073
 10
1105.5883472124
 20
-431.5657018128
 10
1108.9943147962
 20
-437.7202358658
 10
1112.5782159885
 20
-443.7745835792
 10
1116.3309975438
 20
-449.7134511454
 10
1120.2431796102
 20
-455.5218364693
 10
1124.3048796763
 20
-461.1850670655
 10
1128.5058375351
 20
-466.6888371221
 10
1132.8354412026
 20
-472.0192436383
 10
1137.2827537241
 20
-477.1628215445
 10
1141.8365408023
 20
-482.1065777166
 10
1146.4852991756
 20
-486.8380237974
 10
1151.2172856772
 20
-491.3452077436
 10
1156.0205468983
 20
-495.6167440171
 10
1160.8829493842
 20
-499.6418423468
 10
1165.7922102843
 20
-503.410334985
 10
1170.7359283795
 20
-506.9127023921
 10
1175.7016154087
 20
-510.1400972841
 10
1180.6767276157
 20
-513.0843669814
 10
1185.6486974352
 20
-515.7380740033
 10
1190.6049652399
 20
-518.0945148554
 10
1195.5330110673
 20
-520.1477369638
 10
1200.4203862457
 20
-521.8925537111
 10
1205.2547448415
 20
-523.3245575388
 10
1210.0238748452
 20
-524.440131081
 10
1214.7157290205
 20
-525.236456302
 10
1219.3184553365
 20
-525.7115216154
 10
1223.8204269072
 20
-525.8641269647
 10
1228.2102713616
 20
-525.6938868558
 10
1232.4768995717
 20
-525.2012313299
 10
1236.6095336643
 20
-524.3874048775
 10
1240.597734247
 20
-523.254463295
 10
1244.431426779
 20
-521.8052684912
 10
1248.1009270203
 20
-520.0434812577
 10
1251.5969654948
 20
-517.9735520222
 10
1254.9107109059
 20
-515.6007096055
 10
1258.0337924451
 20
-512.9309480135
 10
1260.9583209373
 20
-509.9710112956
 10
1263.6769087699
 20
-506.728376509
 10
1266.1826885539
 20
-503.2112348304
 10
1268.4693304722
 20
-499.4284708651
 10
1270.5310582688
 20
-495.3896402031
 10
1272.3626638405
 20
-491.1049452811
 10
1273.9595203924
 20
-486.5852096104
 10
1275.3175941266
 20
-481.8418504357
 10
1276.4334544307
 20
-476.8868498937
 10
1277.3042825448
 20
-471.7327247459
 10
1277.9278786816
 20
-466.3924947598
 10
1278.302667583
 20
-460.8796498198
 10
1278.4277024999
 20
-455.2081158506
  0
LWPOLYLINE
  5
D0
330
1F
100
AcDbEntity
  8
0
  6
Continuous
 62
     7
370
    25
100
AcDbPolyline
 90
      114
 70
   128
 43
0.0
 10
1260.4671902577
 20
-444.8397328304
 10
1260.3419538571
 20
-439.566994939
 10
1259.9666317538
 20
-434.1659599079
 10
1259.3423840468
 20
-428.6533220268
 10
1258.4711402501
 20
-423.0461205436
 10
1257.3555933284
 20
-417.3616869966
 10
1255.9991913732
 20
-411.6175916441
 10
1254.4061269452
 20
-405.8315891559
 10
1252.5813241154
 20
-400.0215637339
 10
1250.5304232446
 20
-394.2054738337
 10
1248.2597635499
 20
-388.4012966561
 10
1245.7763635104
 20
-382.6269725799
 10
1243.0878991732
 20
-376.90034971
 10
1240.2026804275
 20
-371.2391287094
 10
1237.1296253191
 20
-365.660808088
 10
1233.8782324853
 20
-360.182630115
 10
1230.4585517949
 20
-354.8215275247
 10
1226.8811532851
 20
-349.5940711778
 10
1223.1570944895
 20
-344.5164188424
 10
1219.2978862605
 20
-339.6042652509
 10
1215.3154571897
 20
-334.8727935885
 10
1211.2221167369
 20
-330.3366285629
 10
1207.030517183
 20
-326.0097912004
 10
1202.753614522
 20
-321.9056555072
 10
1198.404628415
 20
-318.0369071315
 10
1193.9970013286
 20
-314.415504153
 10
1189.5443569858
 20
-311.0526401206
 10
1185.0604582549
 20
-307.9587094544
 10
1180.55916461
 20
-305.1432753167
 10
1176.0543892917
 20
-302.6150400531
 10
1171.5600563025
 20
-300.381818294
 10
1167.090057368
 20
-298.4505127997
 10
1162.6582089988
 20
-296.827093125
 10
1158.2782097843
 20
-295.516577167
 10
1153.9635980509
 20
-294.5230156554
 10
1149.7277100163
 20
-293.8494796319
 10
1145.5836385676
 20
-293.4980509578
 10
1141.5441927922
 20
-293.4698158789
 10
1137.6218583856
 20
-293.7648616683
 10
1133.8287590585
 20
-294.3822763563
 10
1130.1766190637
 20
-295.3201515496
 10
1126.6767269565
 20
-296.5755883295
 10
1123.3399007029
 20
-298.1447062131
 10
1120.1764542416
 20
-300.0226551469
 10
1117.1961656044
 20
-302.2036304982
 10
1114.4082466925
 20
-304.6808909973
 10
1111.8213148037
 20
-307.446779574
 10
1109.4433659961
 20
-310.4927470252
 10
1107.2817503732
 20
-313.80937844
 10
1105.3431493651
 20
-317.3864223008
 10
1103.6335550763
 20
-321.21282217
 10
1102.1582517648
 20
-325.2767508649
 10
1100.9217995086
 20
-329.5656470148
 10
1099.9280201108
 20
-334.0662538875
 10
1099.1799852865
 20
-338.7646603651
 10
1098.6800071686
 20
-343.6463439424
 10
1098.4296311607
 20
-348.6962156152
 10
1098.4296311607
 20
-353.8986665195
 10
1098.6800071686
 20
-359.2376161779
 10
1099.1799852865
 20
-364.6965622027
 10
1099.9280201108
 20
-370.2586313048
 10
1100.9217995086
 20
-375.9066314473
 10
1102.1582517648
 20
-381.6231049854
 10
1103.6335550763
 20
-387.3903826269
 10
1105.3431493651
 20
-393.1906380473
 10
1107.2817503732
 20
-399.0059429894
 10
1109.4433659961
 20
-404.8183226789
 10
1111.8213148037
 20
-410.6098113832
 10
1114.4082466925
 20
-416.3625079427
 10
1117.1961656044
 20
-422.058631102
 10
1120.1764542416
 20
-427.6805744709
 10
1123.3399007029
 20
-433.2109609445
 10
1126.6767269565
 20
-438.6326964152
 10
1130.1766190637
 20
-443.9290226094
 10
1133.8287590585
 20
-449.0835688863
 10
1137.6218583856
 20
-454.0804028388
 10
1141.5441927922
 20
-458.9040795395
 10
1145.5836385676
 20
-463.5396892801
 10
1149.7277100163
 20
-467.9729036566
 10
1153.9635980509
 20
-472.1900198574
 10
1158.2782097843
 20
-476.178003018
 10
1162.6582089989
 20
-479.9245265111
 10
1167.090057368
 20
-483.4180100471
 10
1171.5600563025
 20
-486.6476554687
 10
1176.0543892917
 20
-489.6034801269
 10
1180.55916461
 20
-492.2763477372
 10
1185.0604582549
 20
-494.6579966189
 10
1189.5443569858
 20
-496.7410652318
 10
1193.9970013286
 20
-498.5191149303
 10
1198.404628415
 20
-499.9866498645
 10
1202.753614522
 20
-501.1391339682
 10
1207.030517183
 20
-501.9730049789
 10
1211.2221167369
 20
-502.4856854493
 10
1215.3154571897
 20
-502.6755907132
 10
1219.2978862605
 20
-502.5421337846
 10
1223.1570944895
 20
-502.0857271709
 10
1226.8811532851
 20
-501.3077815991
 10
1230.4585517949
 20
-500.2107016541
 10
1233.8782324853
 20
-498.7978783474
 10
1237.1296253191
 20
-497.0736786347
 10
1240.2026804275
 20
-495.0434319185
 10
1243.0878991732
 20
-492.7134135751
 10
1245.7763635104
 20
-490.0908255577
 10
1248.2597635499
 20
-487.1837741356
 10
1250.5304232446
 20
-484.001244838
 10
1252.5813241154
 20
-480.5530746807
 10
1254.4061269452
 20
-476.84992176
 10
1255.9991913732
 20
-472.9032323094
 10
1257.3555933284
 20
-468.7252053197
 10
1258.4711402501
 20
-464.3287548331
 10
1259.3423840468
 20
-459.7274700259
 10
1259.9666317538
 20
-454.9355732059
 10
1260.3419538571
 20
-449.9678758514
 10
1260.4671902577
 20
-444.8397328304
  0
ENDSEC
  0
SECTION
  2
OBJECTS
  0
DICTIONARY
  5
C
330
0
100
AcDbDictionary
281
     1
  3
ACAD_GROUP
350
D
  3
ACAD_LAYOUT
350
1A
  3
ACAD_MLINESTYLE
350
17
  3
ACAD_PLOTSETTINGS
350
19
  3
ACAD_PLOTSTYLENAME
350
E
  3
ACAD_SCALELIST
350
47
  3
DWGPROPS
350
D1
  0
DICTIONARY
  5
D
102
{ACAD_REACTORS
330
C
102
}
330
C
100
AcDbDictionary
281
     1
  0
DICTIONARY
  5
1A
102
{ACAD_REACTORS
330
C
102
}
330
C
100
AcDbDictionary
281
     1
  3
Layout1
350
1E
  3
Layout2
350
26
  3
Model
350
22
  0
DICTIONARY
  5
17
102
{ACAD_REACTORS
330
C
102
}
330
C
100
AcDbDictionary
281
     1
  3
Standard
350
18
  0
DICTIONARY
  5
19
102
{ACAD_REACTORS
330
C
102
}
330
C
100
AcDbDictionary
281
     1
  0
ACDBDICTIONARYWDFLT
  5
E
102
{ACAD_REACTORS
330
C
102
}
330
C
100
AcDbDictionary
281
     1
  3
Normal
350
F
100
AcDbDictionaryWithDefault
340
F
  0
DICTIONARY
  5
47
102
{ACAD_REACTORS
330
C
102
}
330
C
100
AcDbDictionary
281
     1
  3
A0
350
48
  3
A1
350
49
  3
A2
350
4A
  3
A3
350
4B
  3
A4
350
4C
  3
A5
350
4D
  3
A6
350
4E
  3
A7
350
4F
  3
A8
350
50
  3
A9
350
51
  3
B0
350
52
  3
B1
350
53
  3
B2
350
54
  3
B3
350
55
  3
B4
350
56
  3
B5
350
57
  3
B6
350
58
  3
B7
350
59
  3
B8
350
5A
  3
B9
350
5B
  3
C0
350
5C
  3
C1
350
5D
  3
C2
350
5E
  3
C3
350
5F
  3
C4
350
60
  3
C5
350
61
  3
C6
350
62
  3
C7
350
63
  3
C8
350
64
  3
C9
350
65
  3
D0
350
66
  3
D1
350
67
  3
D2
350
68
  0
XRECORD
  5
D1
102
{ACAD_REACTORS
330
C
102
}
330
C
100
AcDbXrecord
280
     1
  1
DWGPROPS COOKIE
  2

  3

  4

  6

  7

  8
b.kav
  9

300
=
301
=
302
=
303
=
304
=
305
=
306
=
307
=
308
=
309
=
 40
0.0
 41
2460608.405392894
 42
2460608.405393113
  1

 90
        0
  0
LAYOUT
  5
1E
102
{ACAD_REACTORS
330
1A
102
}
330
1A
100
AcDbPlotSettings
  1

  2
none_device
  4

  6

 40
0.0
 41
0.0
 42
0.0
 43
0.0
 44
0.0
 45
0.0
 46
0.0
 47
0.0
 48
0.0
 49
0.0
140
0.0
141
0.0
142
1.0
143
1.0
 70
   688
 72
     1
 73
     0
 74
     5
  7

 75
    16
147
1.0
148
0.0
149
0.0
100
AcDbLayout
  1
Layout1
 70
     1
 71
     1
 10
0.0
 20
0.0
 11
420.0
 21
297.0
 12
0.0
 22
0.0
 32
0.0
 14
1.0000000000E+20
 24
1.0000000000E+20
 34
1.0000000000E+20
 15
-1.0000000000E+20
 25
-1.0000000000E+20
 35
-1.0000000000E+20
146
0.0
 13
0.0
 23
0.0
 33
0.0
 16
1.0
 26
0.0
 36
0.0
 17
0.0
 27
1.0
 37
0.0
 76
     0
330
1B
  0
LAYOUT
  5
26
102
{ACAD_REACTORS
330
1A
102
}
330
1A
100
AcDbPlotSettings
  1

  2
none_device
  4

  6

 40
0.0
 41
0.0
 42
0.0
 43
0.0
 44
0.0
 45
0.0
 46
0.0
 47
0.0
 48
0.0
 49
0.0
140
0.0
141
0.0
142
1.0
143
1.0
 70
   688
 72
     1
 73
     0
 74
     5
  7

 75
    16
147
1.0
148
0.0
149
0.0
100
AcDbLayout
  1
Layout2
 70
     1
 71
     2
 10
0.0
 20
0.0
 11
0.0
 21
0.0
 12
0.0
 22
0.0
 32
0.0
 14
0.0
 24
0.0
 34
0.0
 15
0.0
 25
0.0
 35
0.0
146
0.0
 13
0.0
 23
0.0
 33
0.0
 16
1.0
 26
0.0
 36
0.0
 17
0.0
 27
1.0
 37
0.0
 76
     0
330
23
  0
LAYOUT
  5
22
102
{ACAD_REACTORS
330
1A
102
}
330
1A
100
AcDbPlotSettings
  1

  2
none_device
  4
Letter_(8.50_x_11.00_Inches)
  6

 40
6.35
 41
6.35
 42
6.35000508
 43
6.35000508
 44
215.9
 45
279.4
 46
0.0
 47
0.0
 48
0.0
 49
0.0
140
0.0
141
0.0
142
1.0
143
1.0
 70
  1712
 72
     1
 73
     0
 74
     0
  7

 75
     0
147
1.0
148
0.0
149
0.0
100
AcDbLayout
  1
Model
 70
     1
 71
     0
 10
0.0
 20
0.0
 11
279.4
 21
215.9
 12
0.0
 22
0.0
 32
0.0
 14
0.0
 24
0.0
 34
0.0
 15
279.4
 25
215.9
 35
0.0
146
0.0
 13
0.0
 23
0.0
 33
0.0
 16
1.0
 26
0.0
 36
0.0
 17
0.0
 27
1.0
 37
0.0
 76
     0
330
1F
331
29
  0
MLINESTYLE
  5
18
102
{ACAD_REACTORS
330
17
102
}
330
17
100
AcDbMlineStyle
  2
Standard
 70
     0
  3

 62
   256
 51
90.0
 52
90.0
 71
     2
 49
0.5
 62
   256
  6
BYLAYER
 49
-0.5
 62
   256
  6
BYLAYER
  0
ACDBPLACEHOLDER
  5
F
102
{ACAD_REACTORS
330
E
102
}
330
E
  0
SCALE
  5
48
102
{ACAD_REACTORS
330
47
102
}
330
47
100
AcDbScale
 70
     0
300
1:1
140
1.0
141
1.0
290
     1
  0
SCALE
  5
49
102
{ACAD_REACTORS
330
47
102
}
330
47
100
AcDbScale
 70
     0
300
1:2
140
1.0
141
2.0
290
     0
  0
SCALE
  5
4A
102
{ACAD_REACTORS
330
47
102
}
330
47
100
AcDbScale
 70
     0
300
1:4
140
1.0
141
4.0
290
     0
  0
SCALE
  5
4B
102
{ACAD_REACTORS
330
47
102
}
330
47
100
AcDbScale
 70
     0
300
1:5
140
1.0
141
5.0
290
     0
  0
SCALE
  5
4C
102
{ACAD_REACTORS
330
47
102
}
330
47
100
AcDbScale
 70
     0
300
1:8
140
1.0
141
8.0
290
     0
  0
SCALE
  5
4D
102
{ACAD_REACTORS
330
47
102
}
330
47
100
AcDbScale
 70
     0
300
1:10
140
1.0
141
10.0
290
     0
  0
SCALE
  5
4E
102
{ACAD_REACTORS
330
47
102
}
330
47
100
AcDbScale
 70
     0
300
1:16
140
1.0
141
16.0
290
     0
  0
SCALE
  5
4F
102
{ACAD_REACTORS
330
47
102
}
330
47
100
AcDbScale
 70
     0
300
1:20
140
1.0
141
20.0
290
     0
  0
SCALE
  5
50
102
{ACAD_REACTORS
330
47
102
}
330
47
100
AcDbScale
 70
     0
300
1:30
140
1.0
141
30.0
290
     0
  0
SCALE
  5
51
102
{ACAD_REACTORS
330
47
102
}
330
47
100
AcDbScale
 70
     0
300
1:40
140
1.0
141
40.0
290
     0
  0
SCALE
  5
52
102
{ACAD_REACTORS
330
47
102
}
330
47
100
AcDbScale
 70
     0
300
1:50
140
1.0
141
50.0
290
     0
  0
SCALE
  5
53
102
{ACAD_REACTORS
330
47
102
}
330
47
100
AcDbScale
 70
     0
300
1:100
140
1.0
141
100.0
290
     0
  0
SCALE
  5
54
102
{ACAD_REACTORS
330
47
102
}
330
47
100
AcDbScale
 70
     0
300
2:1
140
2.0
141
1.0
290
     0
  0
SCALE
  5
55
102
{ACAD_REACTORS
330
47
102
}
330
47
100
AcDbScale
 70
     0
300
4:1
140
4.0
141
1.0
290
     0
  0
SCALE
  5
56
102
{ACAD_REACTORS
330
47
102
}
330
47
100
AcDbScale
 70
     0
300
8:1
140
8.0
141
1.0
290
     0
  0
SCALE
  5
57
102
{ACAD_REACTORS
330
47
102
}
330
47
100
AcDbScale
 70
     0
300
10:1
140
10.0
141
1.0
290
     0
  0
SCALE
  5
58
102
{ACAD_REACTORS
330
47
102
}
330
47
100
AcDbScale
 70
     0
300
100:1
140
100.0
141
1.0
290
     0
  0
SCALE
  5
59
102
{ACAD_REACTORS
330
47
102
}
330
47
100
AcDbScale
 70
     0
300
1/128" = 1'-0"
140
0.0078125
141
12.0
290
     0
  0
SCALE
  5
5A
102
{ACAD_REACTORS
330
47
102
}
330
47
100
AcDbScale
 70
     0
300
1/64" = 1'-0"
140
0.015625
141
12.0
290
     0
  0
SCALE
  5
5B
102
{ACAD_REACTORS
330
47
102
}
330
47
100
AcDbScale
 70
     0
300
1/32" = 1'-0"
140
0.03125
141
12.0
290
     0
  0
SCALE
  5
5C
102
{ACAD_REACTORS
330
47
102
}
330
47
100
AcDbScale
 70
     0
300
1/16" = 1'-0"
140
0.0625
141
12.0
290
     0
  0
SCALE
  5
5D
102
{ACAD_REACTORS
330
47
102
}
330
47
100
AcDbScale
 70
     0
300
3/32" = 1'-0"
140
0.09375
141
12.0
290
     0
  0
SCALE
  5
5E
102
{ACAD_REACTORS
330
47
102
}
330
47
100
AcDbScale
 70
     0
300
1/8" = 1'-0"
140
0.125
141
12.0
290
     0
  0
SCALE
  5
5F
102
{ACAD_REACTORS
330
47
102
}
330
47
100
AcDbScale
 70
     0
300
3/16" = 1'-0"
140
0.1875
141
12.0
290
     0
  0
SCALE
  5
60
102
{ACAD_REACTORS
330
47
102
}
330
47
100
AcDbScale
 70
     0
300
1/4" = 1'-0"
140
0.25
141
12.0
290
     0
  0
SCALE
  5
61
102
{ACAD_REACTORS
330
47
102
}
330
47
100
AcDbScale
 70
     0
300
3/8" = 1'-0"
140
0.375
141
12.0
290
     0
  0
SCALE
  5
62
102
{ACAD_REACTORS
330
47
102
}
330
47
100
AcDbScale
 70
     0
300
1/2" = 1'-0"
140
0.5
141
12.0
290
     0
  0
SCALE
  5
63
102
{ACAD_REACTORS
330
47
102
}
330
47
100
AcDbScale
 70
     0
300
3/4" = 1'-0"
140
0.75
141
12.0
290
     0
  0
SCALE
  5
64
102
{ACAD_REACTORS
330
47
102
}
330
47
100
AcDbScale
 70
     0
300
1" = 1'-0"
140
1.0
141
12.0
290
     0
  0
SCALE
  5
65
102
{ACAD_REACTORS
330
47
102
}
330
47
100
AcDbScale
 70
     0
300
1-1/2" = 1'-0"
140
1.5
141
12.0
290
     0
  0
SCALE
  5
66
102
{ACAD_REACTORS
330
47
102
}
330
47
100
AcDbScale
 70
     0
300
3" = 1'-0"
140
3.0
141
12.0
290
     0
  0
SCALE
  5
67
102
{ACAD_REACTORS
330
47
102
}
330
47
100
AcDbScale
 70
     0
300
6" = 1'-0"
140
6.0
141
12.0
290
     0
  0
SCALE
  5
68
102
{ACAD_REACTORS
330
47
102
}
330
47
100
AcDbScale
 70
     0
300
1'-0" = 1'-0"
140
12.0
141
12.0
290
     0
  0
ENDSEC
  0
EOF
